  0
SECTION
  2
HEADER
  9
$ACADVER
  1
AC1015
  9
$ACADMAINTVER
 70
     6
  9
$DWGCODEPAGE
  3
ANSI_1254
  9
$INSBASE
 10
0.0
 20
0.0
 30
0.0
  9
$EXTMIN
 10
0.0
 20
0.0
 30
0.0
  9
$EXTMAX
 10
279.4
 20
215.9
 30
0.0
  9
$LIMMIN
 10
0.0
 20
0.0
  9
$LIMMAX
 10
279.4
 20
215.9
  9
$ORTHOMODE
 70
     0
  9
$REGENMODE
 70
     1
  9
$FILLMODE
 70
     1
  9
$QTEXTMODE
 70
     0
  9
$MIRRTEXT
 70
     1
  9
$LTSCALE
 40
1.0
  9
$ATTMODE
 70
     1
  9
$TEXTSIZE
 40
3.5
  9
$TRACEWID
 40
1.0
  9
$TEXTSTYLE
  7
Standard
  9
$CLAYER
  8
0
  9
$CELTYPE
  6
ByLayer
  9
$CECOLOR
 62
   256
  9
$CELTSCALE
 40
1.0
  9
$DISPSILH
 70
     0
  9
$DIMSCALE
 40
1.0
  9
$DIMASZ
 40
3.5
  9
$DIMEXO
 40
1.0
  9
$DIMDLI
 40
3.75
  9
$DIMRND
 40
0.0
  9
$DIMDLE
 40
0.0
  9
$DIMEXE
 40
1.0
  9
$DIMTP
 40
0.0
  9
$DIMTM
 40
0.0
  9
$DIMTXT
 40
3.5
  9
$DIMCEN
 40
2.5
  9
$DIMTSZ
 40
0.0
  9
$DIMTOL
 70
     0
  9
$DIMLIM
 70
     0
  9
$DIMTIH
 70
     1
  9
$DIMTOH
 70
     1
  9
$DIMSE1
 70
     0
  9
$DIMSE2
 70
     0
  9
$DIMTAD
 70
     1
  9
$DIMZIN
 70
     0
  9
$DIMBLK
  1

  9
$DIMASO
 70
     1
  9
$DIMSHO
 70
     1
  9
$DIMPOST
  1

  9
$DIMAPOST
  1

  9
$DIMALT
 70
     0
  9
$DIMALTD
 70
     3
  9
$DIMALTF
 40
0.0393700787
  9
$DIMLFAC
 40
1.0
  9
$DIMTOFL
 70
     1
  9
$DIMTVP
 40
0.0
  9
$DIMTIX
 70
     0
  9
$DIMSOXD
 70
     0
  9
$DIMSAH
 70
     0
  9
$DIMBLK1
  1

  9
$DIMBLK2
  1

  9
$DIMSTYLE
  2
ISO-25
  9
$DIMCLRD
 70
     0
  9
$DIMCLRE
 70
     0
  9
$DIMCLRT
 70
     0
  9
$DIMTFAC
 40
1.0
  9
$DIMGAP
 40
1.524
  9
$DIMJUST
 70
     0
  9
$DIMSD1
 70
     0
  9
$DIMSD2
 70
     0
  9
$DIMTOLJ
 70
     0
  9
$DIMTZIN
 70
     0
  9
$DIMALTZ
 70
     0
  9
$DIMALTTZ
 70
     0
  9
$DIMUPT
 70
     0
  9
$DIMDEC
 70
     2
  9
$DIMTDEC
 70
     2
  9
$DIMALTU
 70
     2
  9
$DIMALTTD
 70
     3
  9
$DIMTXSTY
  7
Standard
  9
$DIMAUNIT
 70
     0
  9
$DIMADEC
 70
     2
  9
$DIMALTRND
 40
0.0
  9
$DIMAZIN
 70
     0
  9
$DIMDSEP
 70
    44
  9
$DIMATFIT
 70
     3
  9
$DIMFRAC
 70
     0
  9
$DIMLDRBLK
  1

  9
$DIMLUNIT
 70
     2
  9
$DIMLWD
 70
    -2
  9
$DIMLWE
 70
    -2
  9
$DIMTMOVE
 70
     0
  9
$LUNITS
 70
     2
  9
$LUPREC
 70
     2
  9
$SKETCHINC
 40
1.0
  9
$FILLETRAD
 40
10.0
  9
$AUNITS
 70
     0
  9
$AUPREC
 70
     2
  9
$MENU
  1
.
  9
$ELEVATION
 40
0.0
  9
$PELEVATION
 40
0.0
  9
$THICKNESS
 40
0.0
  9
$LIMCHECK
 70
     0
  9
$CHAMFERA
 40
0.0
  9
$CHAMFERB
 40
0.0
  9
$CHAMFERC
 40
0.0
  9
$CHAMFERD
 40
0.0
  9
$SKPOLY
 70
     0
  9
$TDCREATE
 40
2458985.665895787
  9
$TDUCREATE
 40
2458985.540895787
  9
$TDUPDATE
 40
2458985.665896076
  9
$TDUUPDATE
 40
2458985.540896076
  9
$TDINDWG
 40
0.0000000116
  9
$TDUSRTIMER
 40
0.0000000116
  9
$USRTIMER
 70
     1
  9
$ANGBASE
 50
0.0
  9
$ANGDIR
 70
     0
  9
$PDMODE
 70
     0
  9
$PDSIZE
 40
-1.0
  9
$PLINEWID
 40
0.0
  9
$SPLFRAME
 70
     0
  9
$SPLINETYPE
 70
     6
  9
$SPLINESEGS
 70
     8
  9
$HANDSEED
  5
D3
  9
$SURFTAB1
 70
     6
  9
$SURFTAB2
 70
     6
  9
$SURFTYPE
 70
     6
  9
$SURFU
 70
     6
  9
$SURFV
 70
     6
  9
$UCSBASE
  2

  9
$UCSNAME
  2

  9
$UCSORG
 10
0.0
 20
0.0
 30
0.0
  9
$UCSXDIR
 10
1.0
 20
0.0
 30
0.0
  9
$UCSYDIR
 10
0.0
 20
1.0
 30
0.0
  9
$UCSORTHOREF
  2

  9
$UCSORTHOVIEW
 70
     0
  9
$UCSORGTOP
 10
0.0
 20
0.0
 30
0.0
  9
$UCSORGBOTTOM
 10
0.0
 20
0.0
 30
0.0
  9
$UCSORGLEFT
 10
0.0
 20
0.0
 30
0.0
  9
$UCSORGRIGHT
 10
0.0
 20
0.0
 30
0.0
  9
$UCSORGFRONT
 10
0.0
 20
0.0
 30
0.0
  9
$UCSORGBACK
 10
0.0
 20
0.0
 30
0.0
  9
$PUCSBASE
  2

  9
$PUCSNAME
  2

  9
$PUCSORG
 10
0.0
 20
0.0
 30
0.0
  9
$PUCSXDIR
 10
1.0
 20
0.0
 30
0.0
  9
$PUCSYDIR
 10
0.0
 20
1.0
 30
0.0
  9
$PUCSORTHOREF
  2

  9
$PUCSORTHOVIEW
 70
     0
  9
$PUCSORGTOP
 10
0.0
 20
0.0
 30
0.0
  9
$PUCSORGBOTTOM
 10
0.0
 20
0.0
 30
0.0
  9
$PUCSORGLEFT
 10
0.0
 20
0.0
 30
0.0
  9
$PUCSORGRIGHT
 10
0.0
 20
0.0
 30
0.0
  9
$PUCSORGFRONT
 10
0.0
 20
0.0
 30
0.0
  9
$PUCSORGBACK
 10
0.0
 20
0.0
 30
0.0
  9
$USERI1
 70
     0
  9
$USERI2
 70
     0
  9
$USERI3
 70
     0
  9
$USERI4
 70
     0
  9
$USERI5
 70
     0
  9
$USERR1
 40
0.0
  9
$USERR2
 40
0.0
  9
$USERR3
 40
0.0
  9
$USERR4
 40
0.0
  9
$USERR5
 40
0.0
  9
$WORLDVIEW
 70
     1
  9
$SHADEDGE
 70
     3
  9
$SHADEDIF
 70
    70
  9
$TILEMODE
 70
     1
  9
$MAXACTVP
 70
    64
  9
$PINSBASE
 10
0.0
 20
0.0
 30
0.0
  9
$PLIMCHECK
 70
     0
  9
$PEXTMIN
 10
1.0000000000E+20
 20
1.0000000000E+20
 30
1.0000000000E+20
  9
$PEXTMAX
 10
-1.0000000000E+20
 20
-1.0000000000E+20
 30
-1.0000000000E+20
  9
$PLIMMIN
 10
0.0
 20
0.0
  9
$PLIMMAX
 10
420.0
 20
297.0
  9
$UNITMODE
 70
     0
  9
$VISRETAIN
 70
     1
  9
$PLINEGEN
 70
     0
  9
$PSLTSCALE
 70
     1
  9
$TREEDEPTH
 70
  3020
  9
$CMLSTYLE
  2
Standard
  9
$CMLJUST
 70
     0
  9
$CMLSCALE
 40
20.0
  9
$PROXYGRAPHICS
 70
     1
  9
$MEASUREMENT
 70
     1
  9
$CELWEIGHT
370
    -1
  9
$ENDCAPS
280
     0
  9
$JOINSTYLE
280
     0
  9
$LWDISPLAY
290
     1
  9
$INSUNITS
 70
     4
  9
$HYPERLINKBASE
  1

  9
$STYLESHEET
  1

  9
$XEDIT
290
     1
  9
$CEPSNTYPE
380
     0
  9
$PSTYLEMODE
290
     1
  9
$FINGERPRINTGUID
  2
{ddaf6f8e-df52-467e-be98-86867a23cd37}
  9
$VERSIONGUID
  2
{FAEB1C32-E019-11D5-929B-00C0DF256EC4}
  9
$EXTNAMES
290
     1
  9
$PSVPSCALE
 40
0.0
  9
$OLESTARTUP
290
     0
  0
ENDSEC
  0
SECTION
  2
CLASSES
  0
CLASS
  1
ACDBDICTIONARYWDFLT
  2
AcDbDictionaryWithDefault
  3
ObjectDBX Classes
 90
        0
280
     0
281
     0
  0
CLASS
  1
VISUALSTYLE
  2
AcDbVisualStyle
  3
ObjectDBX Classes
 90
     4095
280
     0
281
     0
  0
CLASS
  1
MATERIAL
  2
AcDbMaterial
  3
ObjectDBX Classes
 90
     1153
280
     0
281
     0
  0
CLASS
  1
SCALE
  2
AcDbScale
  3
ObjectDBX Classes
 90
     1153
280
     0
281
     0
  0
CLASS
  1
TABLESTYLE
  2
AcDbTableStyle
  3
ObjectDBX Classes
 90
     4095
280
     0
281
     0
  0
CLASS
  1
MLEADERSTYLE
  2
AcDbMLeaderStyle
  3
ACDB_MLEADERSTYLE_CLASS
 90
     4095
280
     0
281
     0
  0
CLASS
  1
SUN
  2
AcDbSun
  3
SCENEOE
 90
     1153
280
     0
281
     0
  0
CLASS
  1
ACDBPLACEHOLDER
  2
AcDbPlaceHolder
  3
ObjectDBX Classes
 90
        0
280
     0
281
     0
  0
CLASS
  1
LAYOUT
  2
AcDbLayout
  3
ObjectDBX Classes
 90
        0
280
     0
281
     0
  0
ENDSEC
  0
SECTION
  2
TABLES
  0
TABLE
  2
VPORT
  5
8
330
0
100
AcDbSymbolTable
 70
     1
  0
VPORT
  5
29
330
8
100
AcDbSymbolTableRecord
100
AcDbViewportTableRecord
  2
*Active
 70
     0
 10
0.0
 20
0.0
 11
1.0
 21
1.0
 12
139.7
 22
107.95
 13
0.0
 23
0.0
 14
10.0
 24
10.0
 15
10.0
 25
10.0
 16
0.0
 26
0.0
 36
1.0
 17
0.0
 27
0.0
 37
0.0
 40
215.9
 41
1.2941176471
 42
50.0
 43
0.0
 44
0.0
 50
0.0
 51
0.0
 71
     0
 72
  2000
 73
     1
 74
     3
 75
     0
 76
     0
 77
     0
 78
     0
281
     0
 65
     1
110
0.0
120
0.0
130
0.0
111
1.0
121
0.0
131
0.0
112
0.0
122
1.0
132
0.0
 79
     0
146
0.0
  0
ENDTAB
  0
TABLE
  2
LTYPE
  5
5
330
0
100
AcDbSymbolTable
 70
     6
  0
LTYPE
  5
14
330
5
100
AcDbSymbolTableRecord
100
AcDbLinetypeTableRecord
  2
ByBlock
 70
     0
  3

 72
    65
 73
     0
 40
0.0
  0
LTYPE
  5
15
330
5
100
AcDbSymbolTableRecord
100
AcDbLinetypeTableRecord
  2
ByLayer
 70
     0
  3

 72
    65
 73
     0
 40
0.0
  0
LTYPE
  5
16
330
5
100
AcDbSymbolTableRecord
100
AcDbLinetypeTableRecord
  2
Continuous
 70
     0
  3
Solid line
 72
    65
 73
     0
 40
0.0
  0
LTYPE
  5
6E
330
5
100
AcDbSymbolTableRecord
100
AcDbLinetypeTableRecord
  2
HIDDEN
 70
     0
  3
Hidden __ __ __ __ __ __ __ __ __ __ __ __ __ __
 72
    65
 73
     2
 40
1.905
 49
1.27
 74
     0
 49
-0.635
 74
     0
  0
LTYPE
  5
6F
330
5
100
AcDbSymbolTableRecord
100
AcDbLinetypeTableRecord
  2
PHANTOM
 70
     0
  3
Phantom ______  __  __  ______  __  __  ______
 72
    65
 73
     6
 40
12.7
 49
6.35
 74
     0
 49
-1.27
 74
     0
 49
1.27
 74
     0
 49
-1.27
 74
     0
 49
1.27
 74
     0
 49
-1.27
 74
     0
  0
LTYPE
  5
70
330
5
100
AcDbSymbolTableRecord
100
AcDbLinetypeTableRecord
  2
CENTER
 70
     0
  3
Center ____ _ ____ _ ____ _ ____ _ ____ _ ____
 72
    65
 73
     4
 40
10.16
 49
6.35
 74
     0
 49
-1.27
 74
     0
 49
1.27
 74
     0
 49
-1.27
 74
     0
  0
LTYPE
  5
71
330
5
100
AcDbSymbolTableRecord
100
AcDbLinetypeTableRecord
  2
CENTERX2
 70
     0
  3
Center (2x) ________  __  ________  __  _____
 72
    65
 73
     4
 40
20.32
 49
12.7
 74
     0
 49
-2.54
 74
     0
 49
2.54
 74
     0
 49
-2.54
 74
     0
  0
LTYPE
  5
72
330
5
100
AcDbSymbolTableRecord
100
AcDbLinetypeTableRecord
  2
DOT2
 70
     0
  3
Dot (.5x) ........................................
 72
    65
 73
     2
 40
0.635
 49
0.0
 74
     0
 49
-0.635
 74
     0
  0
ENDTAB
  0
TABLE
  2
LAYER
  5
2
330
0
100
AcDbSymbolTable
 70
    17
  0
LAYER
  5
10
330
2
100
AcDbSymbolTableRecord
100
AcDbLayerTableRecord
  2
0
 70
     0
 62
     7
  6
Continuous
370
    -3
390
F
  0
LAYER
  5
73
330
2
100
AcDbSymbolTableRecord
100
AcDbLayerTableRecord
  2
FORMAT
 70
     0
 62
     7
  6
Continuous
370
    -3
390
F
  0
LAYER
  5
74
330
2
100
AcDbSymbolTableRecord
100
AcDbLayerTableRecord
  2
YARDIMCI_GEOMETRI
 70
     0
 62
    -6
  6
Continuous
290
     0
370
    -3
390
F
  0
LAYER
  5
75
330
2
100
AcDbSymbolTableRecord
100
AcDbLayerTableRecord
  2
SAYFA_CERCEVESI
 70
     0
 62
     7
  6
Continuous
370
    25
390
F
  0
LAYER
  5
76
330
2
100
AcDbSymbolTableRecord
100
AcDbLayerTableRecord
  2
ANTET
 70
     0
 62
     7
  6
Continuous
370
    -3
390
F
  0
LAYER
  5
77
330
2
100
AcDbSymbolTableRecord
100
AcDbLayerTableRecord
  2
OLCU
 70
     0
 62
   150
  6
Continuous
370
    -3
390
F
  0
LAYER
  5
78
330
2
100
AcDbSymbolTableRecord
100
AcDbLayerTableRecord
  2
METIN
 70
     0
 62
    96
  6
Continuous
370
    -3
390
F
  0
LAYER
  5
79
330
2
100
AcDbSymbolTableRecord
100
AcDbLayerTableRecord
  2
BALON
 70
     0
 62
     5
  6
Continuous
370
    -3
390
F
  0
LAYER
  5
7A
330
2
100
AcDbSymbolTableRecord
100
AcDbLayerTableRecord
  2
VURGU
 70
     0
 62
     7
  6
Continuous
370
    -3
390
F
  0
LAYER
  5
7B
330
2
100
AcDbSymbolTableRecord
100
AcDbLayerTableRecord
  2
SILIK
 70
     0
 62
     7
  6
Continuous
370
    -3
390
F
  0
LAYER
  5
7C
330
2
100
AcDbSymbolTableRecord
100
AcDbLayerTableRecord
  2
MODEL
 70
     0
 62
     7
  6
Continuous
370
    -3
390
F
  0
LAYER
  5
7D
330
2
100
AcDbSymbolTableRecord
100
AcDbLayerTableRecord
  2
DETAYLANDıRMA
 70
     0
 62
   190
  6
Continuous
370
    -3
390
F
  0
LAYER
  5
7E
330
2
100
AcDbSymbolTableRecord
100
AcDbLayerTableRecord
  2
TOLERANS
 70
     0
 62
   230
  6
Continuous
370
    -3
390
F
  0
LAYER
  5
7F
330
2
100
AcDbSymbolTableRecord
100
AcDbLayerTableRecord
  2
MERKEZ_CIZGILERI
 70
     0
 62
    30
  6
Continuous
370
    -3
390
F
  0
LAYER
  5
80
330
2
100
AcDbSymbolTableRecord
100
AcDbLayerTableRecord
  2
KESIT-DETAY_CIZGILERI
 70
     0
 62
     7
  6
Continuous
370
    -3
390
F
  0
LAYER
  5
81
330
2
100
AcDbSymbolTableRecord
100
AcDbLayerTableRecord
  2
\U+041E\U+0421\U+0415\U+0412\U+042B\U+0415
 70
     0
 62
     7
  6
Continuous
370
    -3
390
F
  0
LAYER
  5
82
330
2
100
AcDbSymbolTableRecord
100
AcDbLayerTableRecord
  2
\U+0412\U+041E\U+0414\U+042F\U+041D\U+042B\U+0415_\U+0417\U+041D\U+0410\U+041A\U+0418
 70
     0
 62
    11
  6
Continuous
370
    -3
390
F
  0
ENDTAB
  0
TABLE
  2
STYLE
  5
3
330
0
100
AcDbSymbolTable
 70
     1
  0
STYLE
  5
11
330
3
100
AcDbSymbolTableRecord
100
AcDbTextStyleTableRecord
  2
Standard
 70
     0
 40
0.0
 41
1.0
 50
0.0
 71
     0
 42
3.5
  3
txt
  4

  0
ENDTAB
  0
TABLE
  2
VIEW
  5
6
330
0
100
AcDbSymbolTable
 70
     0
  0
ENDTAB
  0
TABLE
  2
UCS
  5
7
330
0
100
AcDbSymbolTable
 70
     0
  0
ENDTAB
  0
TABLE
  2
APPID
  5
9
330
0
100
AcDbSymbolTable
 70
     1
  0
APPID
  5
12
330
9
100
AcDbSymbolTableRecord
100
AcDbRegAppTableRecord
  2
ACAD
 70
     0
  0
ENDTAB
  0
TABLE
  2
DIMSTYLE
  5
A
330
0
100
AcDbSymbolTable
 70
     1
100
AcDbDimStyleTable
  0
DIMSTYLE
105
27
330
A
100
AcDbSymbolTableRecord
100
AcDbDimStyleTableRecord
  2
ISO-25
 70
     0
 41
2.5
 42
0.625
 43
3.75
 44
1.25
 73
     0
 74
     0
 77
     1
 78
     8
140
2.5
141
2.5
143
0.0393700787
147
0.625
171
     3
172
     1
178
     0
271
     2
272
     2
274
     3
278
    44
283
     0
284
     8
340
11
  0
ENDTAB
  0
TABLE
  2
BLOCK_RECORD
  5
1
330
0
100
AcDbSymbolTable
 70
     3
  0
BLOCK_RECORD
  5
1F
330
1
100
AcDbSymbolTableRecord
100
AcDbBlockTableRecord
  2
*Model_Space
340
22
  0
BLOCK_RECORD
  5
1B
330
1
100
AcDbSymbolTableRecord
100
AcDbBlockTableRecord
  2
*Paper_Space
340
1E
  0
BLOCK_RECORD
  5
23
330
1
100
AcDbSymbolTableRecord
100
AcDbBlockTableRecord
  2
*Paper_Space0
340
26
  0
BLOCK_RECORD
  5
93
330
1
100
AcDbSymbolTableRecord
100
AcDbBlockTableRecord
  2
SW_CENTERMARKSYMBOL_0
340
0
102
{BLKREFS
331
9E
102
}
  0
BLOCK_RECORD
  5
A5
330
1
100
AcDbSymbolTableRecord
100
AcDbBlockTableRecord
  2
SW_CENTERMARKSYMBOL_1
340
0
102
{BLKREFS
331
B0
102
}
  0
ENDTAB
  0
ENDSEC
  0
SECTION
  2
BLOCKS
  0
BLOCK
  5
20
330
1F
100
AcDbEntity
  8
0
100
AcDbBlockBegin
  2
*Model_Space
 70
     0
 10
0.0
 20
0.0
 30
0.0
  3
*Model_Space
  1

  0
ENDBLK
  5
21
330
1F
100
AcDbEntity
  8
0
100
AcDbBlockEnd
  0
BLOCK
  5
1C
330
1B
100
AcDbEntity
 67
     1
  8
0
100
AcDbBlockBegin
  2
*Paper_Space
 70
     0
 10
0.0
 20
0.0
 30
0.0
  3
*Paper_Space
  1

  0
ENDBLK
  5
1D
330
1B
100
AcDbEntity
 67
     1
  8
0
100
AcDbBlockEnd
  0
BLOCK
  5
24
330
23
100
AcDbEntity
  8
0
100
AcDbBlockBegin
  2
*Paper_Space0
 70
     0
 10
0.0
 20
0.0
 30
0.0
  3
*Paper_Space0
  1

  0
ENDBLK
  5
25
330
23
100
AcDbEntity
  8
0
100
AcDbBlockEnd
  0
BLOCK
  5
94
330
93
100
AcDbEntity
  8
0
100
AcDbBlockBegin
  2
SW_CENTERMARKSYMBOL_0
 70
     0
 10
0.0
 20
0.0
 30
0.0
  3
SW_CENTERMARKSYMBOL_0
  1

  0
LINE
  5
96
330
93
100
AcDbEntity
  8
FORMAT
 62
     0
100
AcDbLine
 10
0.0
 20
0.0
 30
0.0
 11
0.0
 21
2.5
 31
0.0
  0
LINE
  5
97
330
93
100
AcDbEntity
  8
FORMAT
 62
     0
100
AcDbLine
 10
0.0
 20
0.0
 30
0.0
 11
-2.5
 21
0.0
 31
0.0
  0
LINE
  5
98
330
93
100
AcDbEntity
  8
FORMAT
 62
     0
100
AcDbLine
 10
0.0
 20
0.0
 30
0.0
 11
0.0
 21
-2.5
 31
0.0
  0
LINE
  5
99
330
93
100
AcDbEntity
  8
FORMAT
 62
     0
100
AcDbLine
 10
0.0
 20
0.0
 30
0.0
 11
2.5
 21
0.0
 31
0.0
  0
LINE
  5
9A
330
93
100
AcDbEntity
  8
FORMAT
 62
     0
100
AcDbLine
 10
0.0
 20
5.0
 30
0.0
 11
0.0
 21
34.0
 31
0.0
  0
LINE
  5
9B
330
93
100
AcDbEntity
  8
FORMAT
 62
     0
100
AcDbLine
 10
-5.0
 20
0.0
 30
0.0
 11
-34.0
 21
0.0
 31
0.0
  0
LINE
  5
9C
330
93
100
AcDbEntity
  8
FORMAT
 62
     0
100
AcDbLine
 10
0.0
 20
-5.0
 30
0.0
 11
0.0
 21
-34.0
 31
0.0
  0
LINE
  5
9D
330
93
100
AcDbEntity
  8
FORMAT
 62
     0
100
AcDbLine
 10
5.0
 20
0.0
 30
0.0
 11
34.0
 21
0.0
 31
0.0
  0
ENDBLK
  5
95
330
93
100
AcDbEntity
  8
0
100
AcDbBlockEnd
  0
BLOCK
  5
A6
330
A5
100
AcDbEntity
  8
0
100
AcDbBlockBegin
  2
SW_CENTERMARKSYMBOL_1
 70
     0
 10
0.0
 20
0.0
 30
0.0
  3
SW_CENTERMARKSYMBOL_1
  1

  0
LINE
  5
A8
330
A5
100
AcDbEntity
  8
FORMAT
 62
     0
100
AcDbLine
 10
0.0
 20
0.0
 30
0.0
 11
0.0
 21
2.5
 31
0.0
  0
LINE
  5
A9
330
A5
100
AcDbEntity
  8
FORMAT
 62
     0
100
AcDbLine
 10
0.0
 20
0.0
 30
0.0
 11
-2.5
 21
0.0
 31
0.0
  0
LINE
  5
AA
330
A5
100
AcDbEntity
  8
FORMAT
 62
     0
100
AcDbLine
 10
0.0
 20
0.0
 30
0.0
 11
0.0
 21
-2.5
 31
0.0
  0
LINE
  5
AB
330
A5
100
AcDbEntity
  8
FORMAT
 62
     0
100
AcDbLine
 10
0.0
 20
0.0
 30
0.0
 11
2.5
 21
0.0
 31
0.0
  0
LINE
  5
AC
330
A5
100
AcDbEntity
  8
FORMAT
 62
     0
100
AcDbLine
 10
0.0
 20
5.0
 30
0.0
 11
0.0
 21
34.0
 31
0.0
  0
LINE
  5
AD
330
A5
100
AcDbEntity
  8
FORMAT
 62
     0
100
AcDbLine
 10
-5.0
 20
0.0
 30
0.0
 11
-34.0
 21
0.0
 31
0.0
  0
LINE
  5
AE
330
A5
100
AcDbEntity
  8
FORMAT
 62
     0
100
AcDbLine
 10
0.0
 20
-5.0
 30
0.0
 11
0.0
 21
-34.0
 31
0.0
  0
LINE
  5
AF
330
A5
100
AcDbEntity
  8
FORMAT
 62
     0
100
AcDbLine
 10
5.0
 20
0.0
 30
0.0
 11
34.0
 21
0.0
 31
0.0
  0
ENDBLK
  5
A7
330
A5
100
AcDbEntity
  8
0
100
AcDbBlockEnd
  0
ENDSEC
  0
SECTION
  2
ENTITIES
  0
LINE
  5
83
330
1F
100
AcDbEntity
  8
0
  6
Continuous
 62
     7
370
    25
100
AcDbLine
 10
97.9408862338
 20
196.083136193
 30
0.0
 11
97.9408862338
 21
80.1176208178
 31
0.0
  0
LINE
  5
84
330
1F
100
AcDbEntity
  8
0
  6
Continuous
 62
     7
370
    25
100
AcDbLine
 10
160.9408872471
 20
80.1176208178
 30
0.0
 11
160.9408872471
 21
196.083136193
 31
0.0
  0
LINE
  5
85
330
1F
100
AcDbEntity
  8
0
  6
Continuous
 62
     7
370
    25
100
AcDbLine
 10
160.9408872471
 20
196.083136193
 30
0.0
 11
160.9408872471
 21
244.1176253478
 31
0.0
  0
LINE
  5
86
330
1F
100
AcDbEntity
  8
0
  6
Continuous
 62
     7
370
    25
100
AcDbLine
 10
160.9408872471
 20
-9.8823827584
 30
0.0
 11
160.9408872471
 21
80.1176208178
 31
0.0
  0
LINE
  5
87
330
1F
100
AcDbEntity
  8
0
  6
Continuous
 62
     7
370
    25
100
AcDbLine
 10
97.9408862338
 20
80.1176208178
 30
0.0
 11
97.9408862338
 21
-9.8823827584
 31
0.0
  0
LINE
  5
88
330
1F
100
AcDbEntity
  8
0
  6
Continuous
 62
     7
370
    25
100
AcDbLine
 10
97.9408862338
 20
244.1176253478
 30
0.0
 11
97.9408862338
 21
196.083136193
 31
0.0
  0
LWPOLYLINE
  5
89
330
1F
100
AcDbEntity
  8
0
  6
Continuous
 62
     7
370
    25
100
AcDbPolyline
 90
       70
 70
   128
 43
0.0
 10
129.4408867405
 20
214.2557728211
 10
127.1038607963
 20
214.1804772536
 10
124.7862003081
 20
213.955231301
 10
122.507109613
 20
213.5818827073
 10
120.2854745359
 20
213.063530914
 10
118.13970453
 20
212.4044823567
 10
116.087579009
 20
211.6101908604
 10
114.1461039231
 20
210.6872278373
 10
112.3313660071
 20
209.6432673852
 10
110.6584033266
 20
208.4869223754
 10
109.1410776869
 20
207.2278040568
 10
107.7919619427
 20
205.8763432423
 10
106.6222375528
 20
204.443730704
 10
105.6415939972
 20
202.9418277661
 10
104.8581598595
 20
201.3831067006
 10
104.278426458
 20
199.7804570119
 10
103.9071956918
 20
198.1471854369
 10
103.7475465134
 20
196.4967924277
 10
103.8007995383
 20
194.8429870526
 10
104.066515182
 20
193.1994485776
 10
104.5424899355
 20
191.5798115651
 10
105.224780579
 20
189.9974870602
 10
106.1077339844
 20
188.4655880849
 10
107.1840336815
 20
186.9968104283
 10
108.4447613255
 20
185.6033283393
 10
109.879467477
 20
184.2966753165
 10
111.4762665973
 20
183.0876994054
 10
113.2219264553
 20
181.986399285
 10
115.1019817487
 20
181.0019242684
 10
117.1008533136
 20
180.1423954884
 10
119.2019785092
 20
179.4149804036
 10
121.3879471914
 20
178.8256692807
 10
123.6406442047
 20
178.3793497006
 10
125.9414037493
 20
178.0797469537
 10
128.2711615356
 20
177.9293197314
 10
130.6106119453
 20
177.9293197314
 10
132.9403697316
 20
178.0797469537
 10
135.2411292762
 20
178.3793497006
 10
137.4938262895
 20
178.8256692807
 10
139.6797949717
 20
179.4149804036
 10
141.7809201673
 20
180.1423954884
 10
143.7797917322
 20
181.0019242684
 10
145.6598470256
 20
181.986399285
 10
147.4055068836
 20
183.0876994054
 10
149.0023060039
 20
184.2966753165
 10
150.4370121554
 20
185.6033283393
 10
151.6977397994
 20
186.9968104283
 10
152.7740394965
 20
188.4655880849
 10
153.6569929019
 20
189.9974870602
 10
154.3392835454
 20
191.5798115651
 10
154.8152582989
 20
193.1994485776
 10
155.0809739426
 20
194.8429870526
 10
155.1342269675
 20
196.4967924277
 10
154.9745777891
 20
198.1471854369
 10
154.6033470229
 20
199.7804570119
 10
154.0236136214
 20
201.3831067006
 10
153.2401794837
 20
202.9418277661
 10
152.2595359281
 20
204.443730704
 10
151.0898115382
 20
205.8763432423
 10
149.740695794
 20
207.2278040568
 10
148.2233701543
 20
208.4869223754
 10
146.5504074738
 20
209.6432673852
 10
144.7356695578
 20
210.6872278373
 10
142.7941944719
 20
211.6101908604
 10
140.7420689509
 20
212.4044823567
 10
138.596298945
 20
213.063530914
 10
136.3746638679
 20
213.5818827073
 10
134.0955731728
 20
213.955231301
 10
131.7779126846
 20
214.1804772536
 10
129.4408867405
 20
214.2557728211
  0
LWPOLYLINE
  5
8A
330
1F
100
AcDbEntity
  8
0
  6
Continuous
 62
     7
370
    25
100
AcDbPolyline
 90
       77
 70
   128
 43
0.0
 10
129.4408867405
 20
218.3569896142
 10
126.8396373641
 20
218.2809191863
 10
124.2561571569
 20
218.0531996409
 10
121.708093983
 20
217.6754254023
 10
119.2128535629
 20
217.1501296679
 10
116.7874809623
 20
216.4809334199
 10
114.4485434786
 20
215.6724113147
 10
112.2120188818
 20
214.7300618808
 10
110.0931855187
 20
213.660337321
 10
108.1065180049
 20
212.4705392043
 10
106.2655838475
 20
211.1688035647
 10
104.5829614893
 20
209.7640263955
 10
103.0701434509
 20
208.2657742421
 10
101.7374636874
 20
206.6843140046
 10
100.5940268085
 20
205.0304341237
 10
99.6476428852
 20
203.3154445807
 10
98.9047790215
 20
201.5510427872
 10
98.3705053375
 20
199.7492837827
 10
98.0484763429
 20
197.9224908273
 10
97.9408862338
 20
196.083136193
 10
98.0484763429
 20
194.2437666575
 10
98.3705053375
 20
192.4169737021
 10
98.9047790215
 20
190.6152146975
 10
99.6476428852
 20
188.8508129041
 10
100.5940268085
 20
187.1358233611
 10
101.7374636874
 20
185.4819434802
 10
103.0701434509
 20
183.9004832427
 10
104.5829614893
 20
182.4022459904
 10
106.2655838475
 20
180.9974539201
 10
108.1065180049
 20
179.6957182805
 10
110.0931855187
 20
178.5059201638
 10
112.2120188818
 20
177.436195604
 10
114.4485434786
 20
176.4938461701
 10
116.7874809623
 20
175.6853240649
 10
119.2128535629
 20
175.0161278169
 10
121.708093983
 20
174.4908469836
 10
124.2561571569
 20
174.1130578439
 10
126.8396373641
 20
173.8853382985
 10
129.4408867405
 20
173.8092678706
 10
132.0421361168
 20
173.8853382985
 10
134.625616324
 20
174.1130578439
 10
137.1736794979
 20
174.4908469836
 10
139.668919918
 20
175.0161278169
 10
142.0942925186
 20
175.6853240649
 10
144.4332300023
 20
176.4938461701
 10
146.6697545991
 20
177.436195604
 10
148.7885879622
 20
178.5059201638
 10
150.775255476
 20
179.6957182805
 10
152.6161896334
 20
180.9974539201
 10
154.2988119916
 20
182.4022459904
 10
155.81163003
 20
183.9004832427
 10
157.1443097935
 20
185.4819434802
 10
158.2877466724
 20
187.1358233611
 10
159.2341305957
 20
188.8508129041
 10
159.9769944594
 20
190.6152146975
 10
160.5112681434
 20
192.4169737021
 10
160.833297138
 20
194.2437666575
 10
160.9408872471
 20
196.083136193
 10
160.833297138
 20
197.9224908273
 10
160.5112681434
 20
199.7492837827
 10
159.9769944594
 20
201.5510427872
 10
159.2341305957
 20
203.3154445807
 10
158.2877466724
 20
205.0304341237
 10
157.1443097935
 20
206.6843140046
 10
155.81163003
 20
208.2657742421
 10
154.2988119916
 20
209.7640263955
 10
152.6161896334
 20
211.1688035647
 10
150.775255476
 20
212.4705392043
 10
148.7885879622
 20
213.660337321
 10
146.6697545991
 20
214.7300618808
 10
144.4332300023
 20
215.6724113147
 10
142.0942925186
 20
216.4809334199
 10
139.668919918
 20
217.1501296679
 10
137.1736794979
 20
217.6754254023
 10
134.625616324
 20
218.0531996409
 10
132.0421361168
 20
218.2809191863
 10
129.4408867405
 20
218.3569896142
  0
ELLIPSE
  5
8B
330
1F
100
AcDbEntity
  8
0
  6
Continuous
 62
     7
370
    25
100
AcDbEllipse
 10
129.4408867405
 20
80.1176172416
 30
0.0
 11
31.49999999999989
 21
0.0
 31
0.0
210
0.0
220
0.0
230
1.0
 40
0.4142135624
 41
3.141592653589828
 42
6.283185307179586
  0
LINE
  5
8C
330
1F
100
AcDbEntity
  8
0
  6
Continuous
 62
     7
370
    25
100
AcDbLine
 10
97.9408862338
 20
-9.8823827584
 30
0.0
 11
160.9408872471
 21
-9.8823827584
 31
0.0
  0
LINE
  5
8D
330
1F
100
AcDbEntity
  8
0
  6
Continuous
 62
     7
370
    25
100
AcDbLine
 10
97.9408862338
 20
244.1176253478
 30
0.0
 11
160.9408872471
 21
244.1176253478
 31
0.0
  0
LINE
  5
8E
330
1F
100
AcDbEntity
  8
0
  6
Continuous
 62
     7
370
    25
100
AcDbLine
 10
97.9408862338
 20
-157.6532758446
 30
0.0
 11
97.9408862338
 21
-273.6187912197
 31
0.0
  0
LINE
  5
8F
330
1F
100
AcDbEntity
  8
0
  6
Continuous
 62
     7
370
    25
100
AcDbLine
 10
160.9408872471
 20
-273.6187912197
 30
0.0
 11
160.9408872471
 21
-157.6532758446
 31
0.0
  0
CIRCLE
  5
90
330
1F
100
AcDbEntity
  8
0
  6
Continuous
 62
     7
370
    25
100
AcDbCircle
 10
129.4408867405
 20
-273.6187912197
 30
0.0
 40
25.69999999999999
  0
CIRCLE
  5
91
330
1F
100
AcDbEntity
  8
0
  6
Continuous
 62
     7
370
    25
100
AcDbCircle
 10
129.4408867405
 20
-273.6187912197
 30
0.0
 40
31.49999999999999
  0
LWPOLYLINE
  5
92
330
1F
100
AcDbEntity
  8
0
  6
Continuous
 62
     7
370
    25
100
AcDbPolyline
 90
       39
 70
   128
 43
0.0
 10
97.9408862338
 20
-157.6532758446
 10
98.0484763429
 20
-155.8139212103
 10
98.3705053375
 20
-153.9871208043
 10
98.9047790215
 20
-152.1853692503
 10
99.6476428852
 20
-150.4209674568
 10
100.5940268085
 20
-148.7059704633
 10
101.7374636874
 20
-147.052098033
 10
103.0701434509
 20
-145.4706377955
 10
104.5829614893
 20
-143.9723856421
 10
106.2655838475
 20
-142.5676084728
 10
108.1065180049
 20
-141.2658579321
 10
110.0931855187
 20
-140.0760747166
 10
112.2120188818
 20
-139.0063501568
 10
114.4485434786
 20
-138.0640007229
 10
116.7874809623
 20
-137.2554637165
 10
119.2128535629
 20
-136.5862674685
 10
121.708093983
 20
-136.0609866352
 10
124.2561571569
 20
-135.6831974955
 10
126.8396373641
 20
-135.4554928513
 10
129.4408867405
 20
-135.3794224234
 10
132.0421361168
 20
-135.4554928513
 10
134.625616324
 20
-135.6831974955
 10
137.1736794979
 20
-136.0609866352
 10
139.668919918
 20
-136.5862674685
 10
142.0942925186
 20
-137.2554637165
 10
144.4332300023
 20
-138.0640007229
 10
146.6697545991
 20
-139.0063501568
 10
148.7885879622
 20
-140.0760747166
 10
150.775255476
 20
-141.2658579321
 10
152.6161896334
 20
-142.5676084728
 10
154.2988119916
 20
-143.9723856421
 10
155.81163003
 20
-145.4706377955
 10
157.1443097935
 20
-147.052098033
 10
158.2877466724
 20
-148.7059704633
 10
159.2341305957
 20
-150.4209674568
 10
159.9769944594
 20
-152.1853692503
 10
160.5112681434
 20
-153.9871208043
 10
160.833297138
 20
-155.8139212103
 10
160.9408872471
 20
-157.6532758446
  0
INSERT
  5
9E
330
1F
100
AcDbEntity
  8
FORMAT
100
AcDbBlockReference
  2
SW_CENTERMARKSYMBOL_0
 10
129.4408867405
 20
-273.6187912197
 30
0.0
  0
LINE
  5
9F
330
1F
100
AcDbEntity
  8
0
  6
Continuous
 62
     7
370
    25
100
AcDbLine
 10
160.9408872471
 20
381.0143127497
 30
0.0
 11
160.9408872471
 21
496.9798281248
 31
0.0
  0
LINE
  5
A0
330
1F
100
AcDbEntity
  8
0
  6
Continuous
 62
     7
370
    25
100
AcDbLine
 10
97.9408862338
 20
496.9798281248
 30
0.0
 11
97.9408862338
 21
381.0143127497
 31
0.0
  0
CIRCLE
  5
A1
330
1F
100
AcDbEntity
  8
0
  6
Continuous
 62
     7
370
    25
100
AcDbCircle
 10
129.4408867405
 20
496.9798281248
 30
0.0
 40
25.69999999999999
  0
CIRCLE
  5
A2
330
1F
100
AcDbEntity
  8
0
  6
Continuous
 62
     7
370
    25
100
AcDbCircle
 10
129.4408867405
 20
496.9798281248
 30
0.0
 40
31.49999999999999
  0
LWPOLYLINE
  5
A3
330
1F
100
AcDbEntity
  8
0
  6
Continuous
 62
     7
370
    25
100
AcDbPolyline
 90
       77
 70
   128
 43
0.0
 10
129.4408867405
 20
403.2881810721
 10
126.8396373641
 20
403.2121031936
 10
124.2561571569
 20
402.9843910988
 10
121.708093983
 20
402.6066019591
 10
119.2128535629
 20
402.0813211258
 10
116.7874809623
 20
401.4121248778
 10
114.4485434786
 20
400.603595322
 10
112.2120188818
 20
399.6612458881
 10
110.0931855187
 20
398.5915213283
 10
108.1065180049
 20
397.4017306622
 10
106.2655838475
 20
396.0999950226
 10
104.5829614893
 20
394.6952029522
 10
103.0701434509
 20
393.1969657
 10
101.7374636874
 20
391.6155054625
 10
100.5940268085
 20
389.9616255816
 10
99.6476428852
 20
388.246628588
 10
98.9047790215
 20
386.4822267945
 10
98.3705053375
 20
384.6804752405
 10
98.0484763429
 20
382.8536748345
 10
97.9408862338
 20
381.0143127497
 10
98.0484763429
 20
379.1749581154
 10
98.3705053375
 20
377.3481577094
 10
98.9047790215
 20
375.5464061554
 10
99.6476428852
 20
373.7820043619
 10
100.5940268085
 20
372.0670073684
 10
101.7374636874
 20
370.4131349381
 10
103.0701434509
 20
368.8316747006
 10
104.5829614893
 20
367.3334225472
 10
106.2655838475
 20
365.9286453779
 10
108.1065180049
 20
364.6268948372
 10
110.0931855187
 20
363.4371116217
 10
112.2120188818
 20
362.3673870619
 10
114.4485434786
 20
361.425037628
 10
116.7874809623
 20
360.6165006216
 10
119.2128535629
 20
359.9473043736
 10
121.708093983
 20
359.4220235403
 10
124.2561571569
 20
359.0442344006
 10
126.8396373641
 20
358.8165297564
 10
129.4408867405
 20
358.7404593285
 10
132.0421361168
 20
358.8165297564
 10
134.625616324
 20
359.0442344006
 10
137.1736794979
 20
359.4220235403
 10
139.668919918
 20
359.9473043736
 10
142.0942925186
 20
360.6165006216
 10
144.4332300023
 20
361.425037628
 10
146.6697545991
 20
362.3673870619
 10
148.7885879622
 20
363.4371116217
 10
150.775255476
 20
364.6268948372
 10
152.6161896334
 20
365.9286453779
 10
154.2988119916
 20
367.3334225472
 10
155.81163003
 20
368.8316747006
 10
157.1443097935
 20
370.4131349381
 10
158.2877466724
 20
372.0670073684
 10
159.2341305957
 20
373.7820043619
 10
159.9769944594
 20
375.5464061554
 10
160.5112681434
 20
377.3481577094
 10
160.833297138
 20
379.1749581154
 10
160.9408872471
 20
381.0143127497
 10
160.833297138
 20
382.8536748345
 10
160.5112681434
 20
384.6804752405
 10
159.9769944594
 20
386.4822267945
 10
159.2341305957
 20
388.246628588
 10
158.2877466724
 20
389.9616255816
 10
157.1443097935
 20
391.6155054625
 10
155.81163003
 20
393.1969657
 10
154.2988119916
 20
394.6952029522
 10
152.6161896334
 20
396.0999950226
 10
150.775255476
 20
397.4017306622
 10
148.7885879622
 20
398.5915213283
 10
146.6697545991
 20
399.6612458881
 10
144.4332300023
 20
400.603595322
 10
142.0942925186
 20
401.4121248778
 10
139.668919918
 20
402.0813211258
 10
137.1736794979
 20
402.6066019591
 10
134.625616324
 20
402.9843910988
 10
132.0421361168
 20
403.2121031936
 10
129.4408867405
 20
403.2881810721
  0
LWPOLYLINE
  5
A4
330
1F
100
AcDbEntity
  8
0
  6
Continuous
 62
     7
370
    25
100
AcDbPolyline
 90
       70
 70
   128
 43
0.0
 10
129.4408867405
 20
399.1869568284
 10
127.1038607963
 20
399.1116687115
 10
124.7862003081
 20
398.8864153083
 10
122.507109613
 20
398.5130667146
 10
120.2854745359
 20
397.9947223719
 10
118.13970453
 20
397.3356738146
 10
116.087579009
 20
396.5413748677
 10
114.1461039231
 20
395.6184192951
 10
112.3313660071
 20
394.5744439419
 10
110.6584033266
 20
393.4181138332
 10
109.1410776869
 20
392.1589955147
 10
107.7919619427
 20
390.8075272496
 10
106.6222375528
 20
389.3749147113
 10
105.6415939972
 20
387.873019224
 10
104.8581598595
 20
386.3142907079
 10
104.278426458
 20
384.7116484697
 10
103.9071956918
 20
383.0783694442
 10
103.7475465134
 20
381.4279838856
 10
103.8007995383
 20
379.7741710599
 10
104.066515182
 20
378.1306325849
 10
104.5424899355
 20
376.5109955724
 10
105.224780579
 20
374.9286710675
 10
106.1077339844
 20
373.3967720922
 10
107.1840336815
 20
371.927986985
 10
108.4447613255
 20
370.534504896
 10
109.879467477
 20
369.2278667744
 10
111.4762665973
 20
368.0188908632
 10
113.2219264553
 20
366.9175907429
 10
115.1019817487
 20
365.9331008251
 10
117.1008533136
 20
365.0735869463
 10
119.2019785092
 20
364.3461569603
 10
121.3879471914
 20
363.7568458374
 10
123.6406442047
 20
363.3105411585
 10
125.9414037493
 20
363.0109384115
 10
128.2711615356
 20
362.8605111893
 10
130.6106119453
 20
362.8605111893
 10
132.9403697316
 20
363.0109384115
 10
135.2411292762
 20
363.3105411585
 10
137.4938262895
 20
363.7568458374
 10
139.6797949717
 20
364.3461569603
 10
141.7809201673
 20
365.0735869463
 10
143.7797917322
 20
365.9331008251
 10
145.6598470256
 20
366.9175907429
 10
147.4055068836
 20
368.0188908632
 10
149.0023060039
 20
369.2278667744
 10
150.4370121554
 20
370.534504896
 10
151.6977397994
 20
371.927986985
 10
152.7740394965
 20
373.3967720922
 10
153.6569929019
 20
374.9286710675
 10
154.3392835454
 20
376.5109955724
 10
154.8152582989
 20
378.1306325849
 10
155.0809739426
 20
379.7741710599
 10
155.1342269675
 20
381.4279838856
 10
154.9745777891
 20
383.0783694442
 10
154.6033470229
 20
384.7116484697
 10
154.0236136214
 20
386.3142907079
 10
153.2401794837
 20
387.873019224
 10
152.2595359281
 20
389.3749147113
 10
151.0898115382
 20
390.8075272496
 10
149.740695794
 20
392.1589955147
 10
148.2233701543
 20
393.4181138332
 10
146.5504074738
 20
394.5744439419
 10
144.7356695578
 20
395.6184192951
 10
142.7941944719
 20
396.5413748677
 10
140.7420689509
 20
397.3356738146
 10
138.596298945
 20
397.9947223719
 10
136.3746638679
 20
398.5130667146
 10
134.0955731728
 20
398.8864153083
 10
131.7779126846
 20
399.1116687115
 10
129.4408867405
 20
399.1869568284
  0
INSERT
  5
B0
330
1F
100
AcDbEntity
  8
FORMAT
100
AcDbBlockReference
  2
SW_CENTERMARKSYMBOL_1
 10
129.4408867405
 20
496.9798281248
 30
0.0
  0
LINE
  5
B1
330
1F
100
AcDbEntity
  8
0
  6
Continuous
 62
     7
370
    25
100
AcDbLine
 10
453.9218653161
 20
156.1653393428
 30
0.0
 11
453.9218653161
 21
244.1176253478
 31
0.0
  0
LINE
  5
B2
330
1F
100
AcDbEntity
  8
0
  6
Continuous
 62
     7
370
    25
100
AcDbLine
 10
453.9218653161
 20
-9.8823827584
 30
0.0
 11
453.9218653161
 21
67.069888405
 31
0.0
  0
LINE
  5
B3
330
1F
100
AcDbEntity
  8
0
  6
Continuous
 62
     7
370
    25
100
AcDbLine
 10
390.9218643028
 20
244.1176253478
 30
0.0
 11
390.9218643028
 21
-9.8823827584
 31
0.0
  0
LINE
  5
B4
330
1F
100
AcDbEntity
  8
0
  6
Continuous
 62
     7
370
    25
100
AcDbLine
 10
516.1135118622
 20
218.3569896142
 30
0.0
 11
453.9218653161
 21
156.1653393428
 31
0.0
  0
LINE
  5
B5
330
1F
100
AcDbEntity
  8
0
  6
Continuous
 62
     7
370
    25
100
AcDbLine
 10
453.9218653161
 20
67.069888405
 30
0.0
 11
560.6612336058
 21
173.8092678706
 31
0.0
  0
LINE
  5
B6
330
1F
100
AcDbEntity
  8
0
  6
Continuous
 62
     7
370
    25
100
AcDbLine
 10
422.4218648095
 20
-9.8823827584
 30
0.0
 11
453.9218653161
 21
-9.8823827584
 31
0.0
  0
LINE
  5
B7
330
1F
100
AcDbEntity
  8
0
  6
Continuous
 62
     7
370
    25
100
AcDbLine
 10
390.9218643028
 20
-9.8823827584
 30
0.0
 11
422.4218648095
 21
-9.8823827584
 31
0.0
  0
LINE
  5
B8
330
1F
100
AcDbEntity
  8
0
  6
Continuous
 62
     7
370
    25
100
AcDbLine
 10
422.4218648095
 20
244.1176253478
 30
0.0
 11
453.9218653161
 21
244.1176253478
 31
0.0
  0
LINE
  5
B9
330
1F
100
AcDbEntity
  8
0
  6
Continuous
 62
     7
370
    25
100
AcDbLine
 10
390.9218643028
 20
244.1176253478
 30
0.0
 11
422.4218648095
 21
244.1176253478
 31
0.0
  0
LWPOLYLINE
  5
BA
330
1F
100
AcDbEntity
  8
0
  6
Continuous
 62
     7
370
    25
100
AcDbPolyline
 90
       32
 70
   128
 43
0.0
 10
422.4218648095
 20
80.1176208178
 10
424.0434456086
 20
84.0324613373
 10
425.6607262585
 20
87.9369231979
 10
427.2694179025
 20
91.8206426422
 10
428.8652549665
 20
95.6733378689
 10
430.444005521
 20
99.4847792308
 10
432.0014823396
 20
103.24485629
 10
433.5335554723
 20
106.943615071
 10
435.03616249
 20
110.5712282578
 10
436.5053191949
 20
114.1180846016
 10
437.9371289332
 20
117.5747740189
 10
439.3277947027
 20
120.9321397464
 10
440.6736303289
 20
124.18127834
 10
441.9710632581
 20
127.3135620276
 10
443.2166569103
 20
130.3206908624
 10
444.4071050901
 20
133.1946778218
 10
445.5392543394
 20
135.927938215
 10
446.6100983489
 20
138.513185374
 10
447.6168003101
 20
140.9435796658
 10
448.5566910524
 20
143.2126688878
 10
449.427276494
 20
145.3144478719
 10
450.2262469549
 20
147.2433286826
 10
450.9514864702
 20
148.9942151229
 10
451.6010690648
 20
150.5624431292
 10
452.1732755173
 20
151.9438701789
 10
452.6665859092
 20
153.1348305861
 10
453.0796926636
 20
154.1321653048
 10
453.4115005452
 20
154.9332219283
 10
453.6611285228
 20
155.5358695905
 10
453.8279172201
 20
155.9385287682
 10
453.9114233274
 20
156.140126578
 10
453.9218653161
 20
156.1653393428
  0
LWPOLYLINE
  5
BB
330
1F
100
AcDbEntity
  8
0
  6
Continuous
 62
     7
370
    25
100
AcDbPolyline
 90
       21
 70
   128
 43
0.0
 10
453.9218653161
 20
67.069888405
 10
453.8963172752
 20
67.0804682295
 10
453.6921937186
 20
67.1650248687
 10
453.2852709461
 20
67.3335793535
 10
452.6781846006
 20
67.5850364487
 10
451.8748760391
 20
67.9177793781
 10
450.8805532176
 20
68.3296400229
 10
449.7016646136
 20
68.8179510753
 10
448.3458563853
 20
69.3795460383
 10
446.821920218
 20
70.0107815782
 10
445.1397411693
 20
70.7075673262
 10
443.310228752
 20
71.4653733293
 10
441.345246153
 20
72.2792971055
 10
439.2575375903
 20
73.144056193
 10
437.0606444944
 20
74.0540328543
 10
434.7688133065
 20
75.0033411304
 10
432.3969070036
 20
75.9858193914
 10
429.9603082407
 20
76.9950899402
 10
427.474820165
 20
78.0246111671
 10
424.9565616418
 20
79.0677148024
 10
422.4218648095
 20
80.1176208178
  0
LWPOLYLINE
  5
BC
330
1F
100
AcDbEntity
  8
0
  6
Continuous
 62
     7
370
    25
100
AcDbPolyline
 90
       39
 70
   128
 43
0.0
 10
516.1135118622
 20
218.3569896142
 10
516.1895897407
 20
218.2809191863
 10
516.4173018355
 20
218.0531996409
 10
516.7950909752
 20
217.6754254023
 10
517.3203718085
 20
217.1501296679
 10
517.9895680565
 20
216.4809334199
 10
518.7980976123
 20
215.6724113147
 10
519.7404470462
 20
214.7300618808
 10
520.810171606
 20
213.660337321
 10
521.9999622721
 20
212.4705392043
 10
523.3016979117
 20
211.1688035647
 10
524.7064899821
 20
209.7640263955
 10
526.2047272343
 20
208.2657742421
 10
527.7861874718
 20
206.6843140046
 10
529.4400673527
 20
205.0304341237
 10
531.1550643463
 20
203.3154445807
 10
532.9194661398
 20
201.5510427872
 10
534.7212176938
 20
199.7492837827
 10
536.5480180997
 20
197.9224908273
 10
538.3873801846
 20
196.083136193
 10
540.2267348189
 20
194.2437666575
 10
542.0535352249
 20
192.4169737021
 10
543.8552867789
 20
190.6152146975
 10
545.6196885724
 20
188.8508129041
 10
547.3346855659
 20
187.1358233611
 10
548.9885579962
 20
185.4819434802
 10
550.5700182337
 20
183.9004832427
 10
552.0682703871
 20
182.4022459904
 10
553.4730475564
 20
180.9974539201
 10
554.7747980971
 20
179.6957182805
 10
555.9645813126
 20
178.5059201638
 10
557.0343058724
 20
177.436195604
 10
557.9766553063
 20
176.4938461701
 10
558.7851923127
 20
175.6853240649
 10
559.4543885607
 20
175.0161278169
 10
559.979669394
 20
174.4908469836
 10
560.3574585337
 20
174.1130578439
 10
560.5851631779
 20
173.8853382985
 10
560.6612336058
 20
173.8092678706
  0
LINE
  5
BD
330
1F
100
AcDbEntity
  8
0
  6
Continuous
 62
     7
370
    25
100
AcDbLine
 10
-129.1817975021
 20
-9.8823827584
 30
0.0
 11
-129.1817975021
 21
244.1176253478
 31
0.0
  0
LINE
  5
BE
330
1F
100
AcDbEntity
  8
0
  6
Continuous
 62
     7
370
    25
100
AcDbLine
 10
-192.1817985154
 20
67.069888405
 30
0.0
 11
-192.1817985154
 21
-9.8823827584
 31
0.0
  0
LINE
  5
BF
330
1F
100
AcDbEntity
  8
0
  6
Continuous
 62
     7
370
    25
100
AcDbLine
 10
-192.1817985154
 20
244.1176253478
 30
0.0
 11
-192.1817985154
 21
156.1653393428
 31
0.0
  0
LINE
  5
C0
330
1F
100
AcDbEntity
  8
0
  6
Continuous
 62
     7
370
    25
100
AcDbLine
 10
-298.9211668051
 20
173.8092678706
 30
0.0
 11
-192.1817985154
 21
67.069888405
 31
0.0
  0
LINE
  5
C1
330
1F
100
AcDbEntity
  8
0
  6
Continuous
 62
     7
370
    25
100
AcDbLine
 10
-192.1817985154
 20
156.1653393428
 30
0.0
 11
-254.3734450615
 21
218.3569896142
 31
0.0
  0
LINE
  5
C2
330
1F
100
AcDbEntity
  8
0
  6
Continuous
 62
     7
370
    25
100
AcDbLine
 10
-192.1817985154
 20
-9.8823827584
 30
0.0
 11
-129.1817975021
 21
-9.8823827584
 31
0.0
  0
LINE
  5
C3
330
1F
100
AcDbEntity
  8
0
  6
Continuous
 62
     7
370
    25
100
AcDbLine
 10
-192.1817985154
 20
244.1176253478
 30
0.0
 11
-129.1817975021
 21
244.1176253478
 31
0.0
  0
LWPOLYLINE
  5
C4
330
1F
100
AcDbEntity
  8
0
  6
Continuous
 62
     7
370
    25
100
AcDbPolyline
 90
       32
 70
   128
 43
0.0
 10
-192.1817985154
 20
156.1653393428
 10
-192.1713565267
 20
156.140126578
 10
-192.0878504194
 20
155.9385287682
 10
-191.9210617221
 20
155.5358695905
 10
-191.6714337445
 20
154.9332219283
 10
-191.3396258629
 20
154.1321653048
 10
-190.9265191085
 20
153.1348305861
 10
-190.4332087166
 20
151.9438701789
 10
-189.8610022641
 20
150.5624431292
 10
-189.2114196695
 20
148.9942151229
 10
-188.4861801542
 20
147.2433286826
 10
-187.6872096933
 20
145.3144478719
 10
-186.8166242517
 20
143.2126688878
 10
-185.8767335094
 20
140.9435796658
 10
-184.8700315482
 20
138.513185374
 10
-183.7991875387
 20
135.927938215
 10
-182.6670382894
 20
133.1946778218
 10
-181.4765901096
 20
130.3206908624
 10
-180.2309964574
 20
127.3135620276
 10
-178.9335635282
 20
124.18127834
 10
-177.587727902
 20
120.9321397464
 10
-176.1970621325
 20
117.5747740189
 10
-174.7652523942
 20
114.1180846016
 10
-173.2960956893
 20
110.5712282578
 10
-171.7934886716
 20
106.943615071
 10
-170.2614155389
 20
103.24485629
 10
-168.7039387203
 20
99.4847792308
 10
-167.1251881658
 20
95.6733378689
 10
-165.5293511018
 20
91.8206426422
 10
-163.9206594578
 20
87.9369231979
 10
-162.3033788079
 20
84.0324613373
 10
-160.6817980088
 20
80.1176208178
  0
LWPOLYLINE
  5
C5
330
1F
100
AcDbEntity
  8
0
  6
Continuous
 62
     7
370
    25
100
AcDbPolyline
 90
       21
 70
   128
 43
0.0
 10
-160.6817980088
 20
80.1176208178
 10
-163.2164948411
 20
79.0677148024
 10
-165.7347533643
 20
78.0246111671
 10
-168.22024144
 20
76.9950899402
 10
-170.6568402029
 20
75.9858193914
 10
-173.0287465058
 20
75.0033411304
 10
-175.3205776937
 20
74.0540328543
 10
-177.5174707896
 20
73.144056193
 10
-179.6051793523
 20
72.2792971055
 10
-181.5701619513
 20
71.4653733293
 10
-183.3996743686
 20
70.7075673262
 10
-185.0818534173
 20
70.0107815782
 10
-186.6057895846
 20
69.3795460383
 10
-187.9615978129
 20
68.8179510753
 10
-189.1404864169
 20
68.3296400229
 10
-190.1348092384
 20
67.9177793781
 10
-190.9381177999
 20
67.5850364487
 10
-191.5452041454
 20
67.3335793535
 10
-191.9521269179
 20
67.1650248687
 10
-192.1562504745
 20
67.0804682295
 10
-192.1817985154
 20
67.069888405
  0
LWPOLYLINE
  5
C6
330
1F
100
AcDbEntity
  8
0
  6
Continuous
 62
     7
370
    25
100
AcDbPolyline
 90
       40
 70
   128
 43
0.0
 10
-298.9211668051
 20
173.8092678706
 10
-298.8450963772
 20
173.8853382985
 10
-298.617391733
 20
174.1130578439
 10
-298.2396025933
 20
174.4908469836
 10
-297.71432176
 20
175.0161278169
 10
-297.045125512
 20
175.6853240649
 10
-296.2365885056
 20
176.4938461701
 10
-295.2942390717
 20
177.436195604
 10
-294.2245145119
 20
178.5059201638
 10
-293.0347312964
 20
179.6957182805
 10
-291.7329807557
 20
180.9974539201
 10
-290.3282035864
 20
182.4022459904
 10
-288.829951433
 20
183.9004832427
 10
-287.2484911955
 20
185.4819434802
 10
-285.5946187652
 20
187.1358233611
 10
-283.8796217717
 20
188.8508129041
 10
-282.1152199782
 20
190.6152146975
 10
-280.3134684242
 20
192.4169737021
 10
-278.4866680182
 20
194.2437666575
 10
-276.6473133839
 20
196.083136193
 10
-274.807951299
 20
197.9224908273
 10
-272.9811508931
 20
199.7492837827
 10
-271.1793993391
 20
201.5510427872
 10
-269.4149975456
 20
203.3154445807
 10
-267.700000552
 20
205.0304341237
 10
-266.0461206711
 20
206.6843140046
 10
-264.4646604336
 20
208.2657742421
 10
-262.9664231814
 20
209.7640263955
 10
-261.561631111
 20
211.1688035647
 10
-260.2598954714
 20
212.4705392043
 10
-259.0701048053
 20
213.660337321
 10
-258.0003802455
 20
214.7300618808
 10
-257.0580308116
 20
215.6724113147
 10
-256.2495012558
 20
216.4809334199
 10
-255.5803050078
 20
217.1501296679
 10
-255.0550241745
 20
217.6754254023
 10
-254.6772350348
 20
218.0531996409
 10
-254.44952294
 20
218.2809191863
 10
-254.3734450615
 20
218.3569896142
 10
-254.3734450615
 20
218.3569896142
  0
LINE
  5
C7
330
1F
100
AcDbEntity
  8
0
  6
Continuous
 62
     7
370
    25
100
AcDbLine
 10
295.5259993064
 20
-123.5770232332
 30
0.0
 11
373.3058047433
 21
-258.2955930946
 31
0.0
  0
LINE
  5
C8
330
1F
100
AcDbEntity
  8
0
  6
Continuous
 62
     7
370
    25
100
AcDbLine
 10
410.1313278214
 20
-196.0792699344
 30
0.0
 11
350.0856057343
 21
-92.0770318495
 31
0.0
  0
LINE
  5
C9
330
1F
100
AcDbEntity
  8
0
  6
Continuous
 62
     7
370
    25
100
AcDbLine
 10
436.3058035913
 20
-323.3438672446
 30
0.0
 11
436.3058035913
 21
-115.9424944066
 31
0.0
  0
LINE
  5
CA
330
1F
100
AcDbEntity
  8
0
  6
Continuous
 62
     7
370
    25
100
AcDbLine
 10
373.3058060604
 20
-257.3887138446
 30
0.0
 11
373.3058060604
 21
-323.3438672446
 31
0.0
  0
LINE
  5
CB
330
1F
100
AcDbEntity
  8
0
  6
Continuous
 62
     7
370
    25
100
AcDbLine
 10
373.3058060604
 20
-115.9424944066
 30
0.0
 11
373.3058060604
 21
-132.2955979257
 31
0.0
  0
ELLIPSE
  5
CC
330
1F
100
AcDbEntity
  8
0
  6
Continuous
 62
     7
370
    25
100
AcDbEllipse
 10
404.8058048259
 20
-249.8551941749
 30
0.0
 11
31.38643494983341
 21
8.409969919475344
 31
0.0
210
0.0
220
0.0
230
1.0
 40
0.3177652438
 41
0.7004580896382464
 42
3.05665257983059
  0
ELLIPSE
  5
CD
330
1F
100
AcDbEntity
  8
0
  6
Continuous
 62
     7
370
    25
100
AcDbEllipse
 10
404.8058048259
 20
-249.8551941749
 30
0.0
 11
-20.30389155626057
 21
75.77515468673636
 31
0.0
210
0.0
220
0.0
230
1.0
 40
0.3178248929
 41
4.797329054143887
 42
5.412847070022957
  0
LWPOLYLINE
  5
CE
330
1F
100
AcDbEntity
  8
0
  6
Continuous
 62
     7
370
    25
100
AcDbPolyline
 90
       77
 70
   128
 43
0.0
 10
338.5558058543
 20
-98.7317944913
 10
336.662649597
 20
-99.8246943475
 10
334.674836457
 20
-100.9722707482
 10
332.6059464453
 20
-102.1666534949
 10
330.4701153843
 20
-103.3997243937
 10
328.2819247666
 20
-104.6630287514
 10
326.0563294794
 20
-105.947938771
 10
323.8085260958
 20
-107.2456930934
 10
321.5538751663
 20
-108.5474173225
 10
319.3077800471
 20
-109.844224404
 10
317.0855769227
 20
-111.1272477019
 10
314.9024452439
 20
-112.3877170425
 10
312.7733076293
 20
-113.6170530083
 10
310.7126994733
 20
-114.8068266361
 10
308.7346978233
 20
-115.9489221531
 10
306.8528173297
 20
-117.0355301342
 10
305.0799127813
 20
-118.0592402809
 10
303.4280934944
 20
-119.013060434
 10
301.9086416537
 20
-119.8904576436
 10
300.5319385547
 20
-120.6854494256
 10
299.3073961155
 20
-121.3926189786
 10
298.2433620464
 20
-122.0071091048
 10
297.3471198495
 20
-122.5247438883
 10
296.6247834521
 20
-122.9419739507
 10
296.081291938
 20
-123.2559464199
 10
295.7203594983
 20
-123.464533835
 10
295.544445138
 20
-123.5662968934
 10
295.5547447741
 20
-123.5605376908
 10
295.7512109914
 20
-123.4473187392
 10
296.132471383
 20
-123.2273823749
 10
296.6959536742
 20
-122.902261024
 10
297.4377856232
 20
-122.4741525079
 10
298.3529056569
 20
-121.9459900072
 10
299.4350622124
 20
-121.3213694507
 10
300.6768664202
 20
-120.6045799431
 10
302.0698382027
 20
-119.8005041545
 10
303.6044536893
 20
-118.914639624
 10
305.2702385649
 20
-117.9530448682
 10
307.055809723
 20
-116.9222666741
 10
308.948960712
 20
-115.8293637765
 10
310.9367685836
 20
-114.6817843344
 10
313.0056585953
 20
-113.4873894203
 10
315.1414896563
 20
-112.2543306889
 10
317.329680274
 20
-110.9910263312
 10
319.5552808296
 20
-109.706119353
 10
321.8030842132
 20
-108.4083650306
 10
324.0577351427
 20
-107.1066408015
 10
326.3038249935
 20
-105.8098306786
 10
328.5260386547
 20
-104.5268134634
 10
330.7091597967
 20
-103.2663258727
 10
332.838307948
 20
-102.037008157
 10
334.898916104
 20
-100.8472345292
 10
336.8769124857
 20
-99.7051359709
 10
338.7587929793
 20
-98.6185279898
 10
340.5316975277
 20
-97.5948178431
 10
342.1835168146
 20
-96.6409976899
 10
343.7029686553
 20
-95.7636004804
 10
345.0796664859
 20
-94.9685934896
 10
346.3042141935
 20
-94.2614391454
 10
347.3682482626
 20
-93.6469490192
 10
348.2644904595
 20
-93.1293142357
 10
348.9868268569
 20
-92.7120841732
 10
349.530318371
 20
-92.398111704
 10
349.8912560791
 20
-92.1895273303
 10
350.0671704393
 20
-92.0877642719
 10
350.0568602665
 20
-92.0935052244
 10
349.860404586
 20
-92.2067424262
 10
349.4791336576
 20
-92.4266727077
 10
348.9156566348
 20
-92.7517971
 10
348.1738246858
 20
-93.1799056161
 10
347.2587046521
 20
-93.7080681168
 10
346.1765428283
 20
-94.3326856319
 10
344.9347386204
 20
-95.0494751395
 10
343.5417668379
 20
-95.8535387607
 10
342.0071513513
 20
-96.7394154586
 10
340.3413717441
 20
-97.7010132558
 10
338.5558058543
 20
-98.7317944913
  0
LWPOLYLINE
  5
CF
330
1F
100
AcDbEntity
  8
0
  6
Continuous
 62
     7
370
    25
100
AcDbPolyline
 90
       70
 70
   128
 43
0.0
 10
335.6558023805
 20
-100.4064690107
 10
333.9500387495
 20
-101.391201469
 10
332.151927093
 20
-102.4292530408
 10
330.2763692852
 20
-103.5120390599
 10
328.3389112571
 20
-104.6305846402
 10
326.3556050311
 20
-105.7756104096
 10
324.3428789877
 20
-106.937631742
 10
322.3174206448
 20
-108.1070325147
 10
320.2960051067
 20
-109.274097234
 10
318.2953929896
 20
-110.4291916384
 10
316.3321506391
 20
-111.5627144083
 10
314.4225493729
 20
-112.6652770104
 10
312.582419284
 20
-113.7277516071
 10
310.8269990923
 20
-114.7413394987
 10
309.1708399972
 20
-115.6976205533
 10
307.6276673832
 20
-116.5886938953
 10
306.2102649166
 20
-117.407153575
 10
304.9303770798
 20
-118.1462421859
 10
303.798610391
 20
-118.7998105657
 10
302.8243425237
 20
-119.3624615314
 10
302.015651185
 20
-119.8295240301
 10
301.3792311383
 20
-120.1971314773
 10
300.9203573251
 20
-120.4622369741
 10
300.6428282302
 20
-120.6226399346
 10
300.5489566619
 20
-120.6770157526
 10
300.6395144343
 20
-120.6249234218
 10
300.9137468554
 20
-120.466772846
 10
301.3693779954
 20
-120.2038887302
 10
302.0026383455
 20
-119.838433786
 10
302.8082858915
 20
-119.3734695824
 10
303.7796350895
 20
-118.8128059888
 10
304.9086424769
 20
-118.1611220988
 10
306.185954746
 20
-117.4238168134
 10
307.6009862879
 20
-116.6069762494
 10
309.1420057082
 20
-115.7173846357
 10
310.7962469571
 20
-114.7624114899
 10
312.5500025953
 20
-113.7499699483
 10
314.3887364052
 20
-112.6884517567
 10
316.2972188042
 20
-111.5866369269
 10
318.259637974
 20
-110.4536782526
 10
320.2597285239
 20
-109.2989661925
 10
322.2809122544
 20
-108.1320354361
 10
324.3064515983
 20
-106.9625979881
 10
326.3195563047
 20
-105.8003112353
 10
328.3035388559
 20
-104.6548220563
 10
330.241961981
 20
-103.535608647
 10
332.1187716819
 20
-102.4519645536
 10
333.9184184057
 20
-101.4128617897
 10
335.6259768997
 20
-100.4269059703
 10
337.2273016279
 20
-99.5022709071
 10
338.7091229183
 20
-98.6466187587
 10
340.0591694527
 20
-97.867035386
 10
341.2662472915
 20
-97.1699908048
 10
342.320357095
 20
-96.5612410781
 10
343.2127599774
 20
-96.0458572073
 10
343.9360657523
 20
-95.628082917
 10
344.4842816646
 20
-95.3114038475
 10
344.8528624403
 20
-95.0984213095
 10
345.0387524328
 20
-94.9909191933
 10
345.0404159162
 20
-94.9897856285
 10
344.8578357684
 20
-95.0950198192
 10
344.4925213735
 20
-95.3057457179
 10
343.9475099387
 20
-95.620247754
 10
343.2273078841
 20
-96.0358829904
 10
342.3378901839
 20
-96.5492335798
 10
341.2866193659
 20
-97.1560318493
 10
340.0822109372
 20
-97.8512471675
 10
338.7346477742
 20
-98.6291292794
 10
337.2550925354
 20
-99.4832345307
 10
335.6558023805
 20
-100.4064690107
  0
LWPOLYLINE
  5
D0
330
1F
100
AcDbEntity
  8
0
  6
Continuous
 62
     7
370
    25
100
AcDbPolyline
 90
       77
 70
   128
 43
0.0
 10
382.5319408602
 20
-336.2022952127
 10
380.7686574824
 20
-335.0965359479
 10
379.1695699946
 20
-333.9104953072
 10
377.7456057905
 20
-332.6522729002
 10
376.5064884442
 20
-331.330465598
 10
375.4606855212
 20
-329.9541009095
 10
374.6153389367
 20
-328.5325815704
 10
373.9762241259
 20
-327.0756178742
 10
373.5477065803
 20
-325.5931630424
 10
373.332714189
 20
-324.0953440343
 10
373.332714189
 20
-322.5923904549
 10
373.5477065803
 20
-321.0945714469
 10
373.9762241259
 20
-319.6121166151
 10
374.6153389367
 20
-318.1551529189
 10
375.4606855212
 20
-316.7336335798
 10
376.5064884442
 20
-315.3572688913
 10
377.7456057905
 20
-314.0354615891
 10
379.1695699946
 20
-312.7772391821
 10
380.7686574824
 20
-311.5911985414
 10
382.5319408602
 20
-310.4854392766
 10
384.4473796295
 20
-309.4675174497
 10
386.5018848889
 20
-308.5443838924
 10
388.6814261831
 20
-307.7223468549
 10
390.9711116803
 20
-307.0070196371
 10
393.3553035829
 20
-306.4032904604
 10
395.8177141093
 20
-305.9152822647
 10
398.3415227159
 20
-305.5463291378
 10
400.9094880488
 20
-305.2989512243
 10
403.5040677995
 20
-305.1748387586
 10
406.1075418523
 20
-305.1748387586
 10
408.7021216029
 20
-305.2989512243
 10
411.2700869359
 20
-305.5463291378
 10
413.7938955424
 20
-305.9152822647
 10
416.2563060689
 20
-306.4032904604
 10
418.6404979714
 20
-307.0070196371
 10
420.9301834687
 20
-307.7223468549
 10
423.1097247628
 20
-308.5443838924
 10
425.1642300222
 20
-309.4675174497
 10
427.0796687915
 20
-310.4854392766
 10
428.8429521693
 20
-311.5911985414
 10
430.4420396571
 20
-312.7772391821
 10
431.8660038613
 20
-314.0354615891
 10
433.1051212075
 20
-315.3572688913
 10
434.1509241305
 20
-316.7336335798
 10
434.9962707151
 20
-318.1551529189
 10
435.6353855259
 20
-319.6121166151
 10
436.0639030714
 20
-321.0945714469
 10
436.2788954628
 20
-322.5923904549
 10
436.2788954628
 20
-324.0953440343
 10
436.0639030714
 20
-325.5931630424
 10
435.6353855259
 20
-327.0756178742
 10
434.9962707151
 20
-328.5325815704
 10
434.1509241305
 20
-329.9541009095
 10
433.1051212075
 20
-331.330465598
 10
431.8660038613
 20
-332.6522729002
 10
430.4420396571
 20
-333.9104953072
 10
428.8429521693
 20
-335.0965359479
 10
427.0796687915
 20
-336.2022952127
 10
425.1642300222
 20
-337.2202170396
 10
423.1097247628
 20
-338.1433505969
 10
420.9301834687
 20
-338.9653876344
 10
418.6404979714
 20
-339.6807148522
 10
416.2563060689
 20
-340.2844440289
 10
413.7938955424
 20
-340.7724522246
 10
411.2700869359
 20
-341.1414053515
 10
408.7021216029
 20
-341.388783265
 10
406.1075418523
 20
-341.5128957307
 10
403.5040677995
 20
-341.5128957307
 10
400.9094880488
 20
-341.388783265
 10
398.3415227159
 20
-341.1414053515
 10
395.8177141093
 20
-340.7724522246
 10
393.3553035829
 20
-340.2844440289
 10
390.9711116803
 20
-339.6807148522
 10
388.6814261831
 20
-338.9653876344
 10
386.5018848889
 20
-338.1433505969
 10
384.4473796295
 20
-337.2202170396
 10
382.5319408602
 20
-336.2022952127
  0
LWPOLYLINE
  5
D1
330
1F
100
AcDbEntity
  8
0
  6
Continuous
 62
     7
370
    25
100
AcDbPolyline
 90
       40
 70
   128
 43
0.0
 10
373.3058060604
 20
-115.9424944066
 10
373.332714189
 20
-115.1910176169
 10
373.5477065803
 20
-113.6931986088
 10
373.9762241259
 20
-112.210743777
 10
374.6153389367
 20
-110.7537800808
 10
375.4606855212
 20
-109.3322607418
 10
376.5064884442
 20
-107.9558960532
 10
377.7456057905
 20
-106.6340887511
 10
379.1695699946
 20
-105.375866344
 10
380.7686574824
 20
-104.1898257033
 10
382.5319408602
 20
-103.0840664386
 10
384.4473796295
 20
-102.0661446116
 10
386.5018848889
 20
-101.1430110544
 10
388.6814261831
 20
-100.3209740169
 10
390.9711116803
 20
-99.6056467991
 10
393.3553035829
 20
-99.0019176224
 10
395.8177141093
 20
-98.5139094266
 10
398.3415227159
 20
-98.1449562997
 10
400.9094880488
 20
-97.8975783863
 10
403.5040677995
 20
-97.7734659206
 10
406.1075418523
 20
-97.7734659206
 10
408.7021216029
 20
-97.8975783863
 10
411.2700869359
 20
-98.1449562997
 10
413.7938955424
 20
-98.5139094266
 10
416.2563060689
 20
-99.0019176224
 10
418.6404979714
 20
-99.6056467991
 10
420.9301834687
 20
-100.3209740169
 10
423.1097247628
 20
-101.1430110544
 10
425.1642300222
 20
-102.0661446116
 10
427.0796687915
 20
-103.0840664386
 10
428.8429521693
 20
-104.1898257033
 10
430.4420396571
 20
-105.375866344
 10
431.8660038613
 20
-106.6340887511
 10
433.1051212075
 20
-107.9558960532
 10
434.1509241305
 20
-109.3322607418
 10
434.9962707151
 20
-110.7537800808
 10
435.6353855259
 20
-112.210743777
 10
436.0639030714
 20
-113.6931986088
 10
436.2788954628
 20
-115.1910176169
 10
436.3058035913
 20
-115.9424944066
  0
LWPOLYLINE
  5
D2
330
1F
100
AcDbEntity
  8
0
  6
Continuous
 62
     7
370
    25
100
AcDbPolyline
 90
       70
 70
   128
 43
0.0
 10
386.6331611268
 20
-333.8347111482
 10
385.0559256275
 20
-332.8372628827
 10
383.6423446946
 20
-331.7611489623
 10
382.4041302129
 20
-330.6152868365
 10
381.3515439522
 20
-329.4091710522
 10
380.4933070174
 20
-328.1527966498
 10
379.8365307014
 20
-326.8565736248
 10
379.386657216
 20
-325.5312440508
 10
379.1474158988
 20
-324.187788368
 10
379.1207883102
 20
-322.8373398446
 10
379.3069930869
 20
-321.4910891546
 10
379.7044898934
 20
-320.1601900952
 10
380.30998469
 20
-318.8556729089
 10
381.118458709
 20
-317.5883454386
 10
382.1232138943
 20
-316.3687106314
 10
383.3159249261
 20
-315.206874157
 10
384.6867063929
 20
-314.1124630514
 10
386.2242022297
 20
-313.0945467131
 10
387.9156703822
 20
-312.1615591347
 10
389.7470960768
 20
-311.3212319927
 10
391.7033022085
 20
-310.5805278803
 10
393.768079939
 20
-309.9455846842
 10
395.9243199528
 20
-309.4216641425
 10
398.1541549496
 20
-309.0131076024
 10
400.4391088045
 20
-308.7233000945
 10
402.7602444119
 20
-308.5546427705
 10
405.0983302963
 20
-308.5085342744
 10
407.433992737
 20
-308.5853559164
 10
409.7478784278
 20
-308.7844705321
 10
412.0208105528
 20
-309.104229706
 10
414.2339586903
 20
-309.5419821349
 10
416.3689810586
 20
-310.0941025209
 10
418.4081871766
 20
-310.7560140017
 10
420.3346799447
 20
-311.5222321548
 10
422.1324961618
 20
-312.3864080995
 10
423.7867374107
 20
-313.3413812453
 10
425.2836962521
 20
-314.379238456
 10
426.6109688357
 20
-315.4913790585
 10
427.7575573859
 20
-316.6685876928
 10
428.7139615748
 20
-317.9011098711
 10
429.4722531852
 20
-319.1787330959
 10
430.0261523367
 20
-320.490868882
 10
430.3710663399
 20
-321.8266466585
 10
430.5041397457
 20
-323.1749958851
 10
430.4242688336
 20
-324.524744136
 10
430.1321141237
 20
-325.8647072002
 10
429.6300984013
 20
-327.1837829833
 10
428.9223810334
 20
-328.4710393269
 10
428.0148257004
 20
-329.7158101912
 10
426.9149526513
 20
-330.9077810032
 10
425.6318764714
 20
-332.0370747654
 10
424.176229444
 20
-333.0943343144
 10
422.5600724414
 20
-334.0707980943
 10
420.7967985713
 20
-334.9583755482
 10
418.9010175202
 20
-335.749710845
 10
416.8884396494
 20
-336.4382482677
 10
414.7757412813
 20
-337.0182810898
 10
412.5804278462
 20
-337.4850032065
 10
410.3206929532
 20
-337.8345479124
 10
408.015258364
 20
-338.0640179343
 10
405.6832310891
 20
-338.1715116639
 10
403.3439321656
 20
-338.1561398841
 10
401.0167465099
 20
-338.0180288115
 10
398.7209595978
 20
-337.7583223764
 10
396.4755921703
 20
-337.3791734796
 10
394.299252061
 20
-336.8837238431
 10
392.2099718649
 20
-336.2760787289
 10
390.2250653758
 20
-335.5612727237
 10
388.3609794133
 20
-334.7452298211
 10
386.6331611268
 20
-333.8347111482
  0
ENDSEC
  0
SECTION
  2
OBJECTS
  0
DICTIONARY
  5
C
330
0
100
AcDbDictionary
281
     1
  3
ACAD_GROUP
350
D
  3
ACAD_LAYOUT
350
1A
  3
ACAD_MLINESTYLE
350
17
  3
ACAD_PLOTSETTINGS
350
19
  3
ACAD_PLOTSTYLENAME
350
E
  3
ACAD_SCALELIST
350
47
  0
DICTIONARY
  5
D
102
{ACAD_REACTORS
330
C
102
}
330
C
100
AcDbDictionary
281
     1
  0
DICTIONARY
  5
1A
102
{ACAD_REACTORS
330
C
102
}
330
C
100
AcDbDictionary
281
     1
  3
Layout1
350
1E
  3
Layout2
350
26
  3
Model
350
22
  0
DICTIONARY
  5
17
102
{ACAD_REACTORS
330
C
102
}
330
C
100
AcDbDictionary
281
     1
  3
Standard
350
18
  0
DICTIONARY
  5
19
102
{ACAD_REACTORS
330
C
102
}
330
C
100
AcDbDictionary
281
     1
  0
ACDBDICTIONARYWDFLT
  5
E
102
{ACAD_REACTORS
330
C
102
}
330
C
100
AcDbDictionary
281
     1
  3
Normal
350
F
100
AcDbDictionaryWithDefault
340
F
  0
DICTIONARY
  5
47
102
{ACAD_REACTORS
330
C
102
}
330
C
100
AcDbDictionary
281
     1
  3
A0
350
48
  3
A1
350
49
  3
A2
350
4A
  3
A3
350
4B
  3
A4
350
4C
  3
A5
350
4D
  3
A6
350
4E
  3
A7
350
4F
  3
A8
350
50
  3
A9
350
51
  3
B0
350
52
  3
B1
350
53
  3
B2
350
54
  3
B3
350
55
  3
B4
350
56
  3
B5
350
57
  3
B6
350
58
  3
B7
350
59
  3
B8
350
5A
  3
B9
350
5B
  3
C0
350
5C
  3
C1
350
5D
  3
C2
350
5E
  3
C3
350
5F
  3
C4
350
60
  3
C5
350
61
  3
C6
350
62
  3
C7
350
63
  3
C8
350
64
  3
C9
350
65
  3
D0
350
66
  3
D1
350
67
  3
D2
350
68
  0
LAYOUT
  5
1E
102
{ACAD_REACTORS
330
1A
102
}
330
1A
100
AcDbPlotSettings
  1

  2
none_device
  4

  6

 40
0.0
 41
0.0
 42
0.0
 43
0.0
 44
0.0
 45
0.0
 46
0.0
 47
0.0
 48
0.0
 49
0.0
140
0.0
141
0.0
142
1.0
143
1.0
 70
   688
 72
     1
 73
     0
 74
     5
  7

 75
    16
147
1.0
148
0.0
149
0.0
100
AcDbLayout
  1
Layout1
 70
     1
 71
     1
 10
0.0
 20
0.0
 11
420.0
 21
297.0
 12
0.0
 22
0.0
 32
0.0
 14
1.0000000000E+20
 24
1.0000000000E+20
 34
1.0000000000E+20
 15
-1.0000000000E+20
 25
-1.0000000000E+20
 35
-1.0000000000E+20
146
0.0
 13
0.0
 23
0.0
 33
0.0
 16
1.0
 26
0.0
 36
0.0
 17
0.0
 27
1.0
 37
0.0
 76
     0
330
1B
  0
LAYOUT
  5
26
102
{ACAD_REACTORS
330
1A
102
}
330
1A
100
AcDbPlotSettings
  1

  2
none_device
  4

  6

 40
0.0
 41
0.0
 42
0.0
 43
0.0
 44
0.0
 45
0.0
 46
0.0
 47
0.0
 48
0.0
 49
0.0
140
0.0
141
0.0
142
1.0
143
1.0
 70
   688
 72
     1
 73
     0
 74
     5
  7

 75
    16
147
1.0
148
0.0
149
0.0
100
AcDbLayout
  1
Layout2
 70
     1
 71
     2
 10
0.0
 20
0.0
 11
0.0
 21
0.0
 12
0.0
 22
0.0
 32
0.0
 14
0.0
 24
0.0
 34
0.0
 15
0.0
 25
0.0
 35
0.0
146
0.0
 13
0.0
 23
0.0
 33
0.0
 16
1.0
 26
0.0
 36
0.0
 17
0.0
 27
1.0
 37
0.0
 76
     0
330
23
  0
LAYOUT
  5
22
102
{ACAD_REACTORS
330
1A
102
}
330
1A
100
AcDbPlotSettings
  1

  2
none_device
  4
Letter_(8.50_x_11.00_Inches)
  6

 40
6.35
 41
6.35
 42
6.35000508
 43
6.35000508
 44
215.9
 45
279.4
 46
0.0
 47
0.0
 48
0.0
 49
0.0
140
0.0
141
0.0
142
1.0
143
1.0
 70
  1712
 72
     1
 73
     0
 74
     0
  7

 75
     0
147
1.0
148
0.0
149
0.0
100
AcDbLayout
  1
Model
 70
     1
 71
     0
 10
0.0
 20
0.0
 11
279.4
 21
215.9
 12
0.0
 22
0.0
 32
0.0
 14
0.0
 24
0.0
 34
0.0
 15
279.4
 25
215.9
 35
0.0
146
0.0
 13
0.0
 23
0.0
 33
0.0
 16
1.0
 26
0.0
 36
0.0
 17
0.0
 27
1.0
 37
0.0
 76
     0
330
1F
331
29
  0
MLINESTYLE
  5
18
102
{ACAD_REACTORS
330
17
102
}
330
17
100
AcDbMlineStyle
  2
Standard
 70
     0
  3

 62
   256
 51
90.0
 52
90.0
 71
     2
 49
0.5
 62
   256
  6
BYLAYER
 49
-0.5
 62
   256
  6
BYLAYER
  0
ACDBPLACEHOLDER
  5
F
102
{ACAD_REACTORS
330
E
102
}
330
E
  0
SCALE
  5
48
102
{ACAD_REACTORS
330
47
102
}
330
47
100
AcDbScale
 70
     0
300
1:1
140
1.0
141
1.0
290
     1
  0
SCALE
  5
49
102
{ACAD_REACTORS
330
47
102
}
330
47
100
AcDbScale
 70
     0
300
1:2
140
1.0
141
2.0
290
     0
  0
SCALE
  5
4A
102
{ACAD_REACTORS
330
47
102
}
330
47
100
AcDbScale
 70
     0
300
1:4
140
1.0
141
4.0
290
     0
  0
SCALE
  5
4B
102
{ACAD_REACTORS
330
47
102
}
330
47
100
AcDbScale
 70
     0
300
1:5
140
1.0
141
5.0
290
     0
  0
SCALE
  5
4C
102
{ACAD_REACTORS
330
47
102
}
330
47
100
AcDbScale
 70
     0
300
1:8
140
1.0
141
8.0
290
     0
  0
SCALE
  5
4D
102
{ACAD_REACTORS
330
47
102
}
330
47
100
AcDbScale
 70
     0
300
1:10
140
1.0
141
10.0
290
     0
  0
SCALE
  5
4E
102
{ACAD_REACTORS
330
47
102
}
330
47
100
AcDbScale
 70
     0
300
1:16
140
1.0
141
16.0
290
     0
  0
SCALE
  5
4F
102
{ACAD_REACTORS
330
47
102
}
330
47
100
AcDbScale
 70
     0
300
1:20
140
1.0
141
20.0
290
     0
  0
SCALE
  5
50
102
{ACAD_REACTORS
330
47
102
}
330
47
100
AcDbScale
 70
     0
300
1:30
140
1.0
141
30.0
290
     0
  0
SCALE
  5
51
102
{ACAD_REACTORS
330
47
102
}
330
47
100
AcDbScale
 70
     0
300
1:40
140
1.0
141
40.0
290
     0
  0
SCALE
  5
52
102
{ACAD_REACTORS
330
47
102
}
330
47
100
AcDbScale
 70
     0
300
1:50
140
1.0
141
50.0
290
     0
  0
SCALE
  5
53
102
{ACAD_REACTORS
330
47
102
}
330
47
100
AcDbScale
 70
     0
300
1:100
140
1.0
141
100.0
290
     0
  0
SCALE
  5
54
102
{ACAD_REACTORS
330
47
102
}
330
47
100
AcDbScale
 70
     0
300
2:1
140
2.0
141
1.0
290
     0
  0
SCALE
  5
55
102
{ACAD_REACTORS
330
47
102
}
330
47
100
AcDbScale
 70
     0
300
4:1
140
4.0
141
1.0
290
     0
  0
SCALE
  5
56
102
{ACAD_REACTORS
330
47
102
}
330
47
100
AcDbScale
 70
     0
300
8:1
140
8.0
141
1.0
290
     0
  0
SCALE
  5
57
102
{ACAD_REACTORS
330
47
102
}
330
47
100
AcDbScale
 70
     0
300
10:1
140
10.0
141
1.0
290
     0
  0
SCALE
  5
58
102
{ACAD_REACTORS
330
47
102
}
330
47
100
AcDbScale
 70
     0
300
100:1
140
100.0
141
1.0
290
     0
  0
SCALE
  5
59
102
{ACAD_REACTORS
330
47
102
}
330
47
100
AcDbScale
 70
     0
300
1/128" = 1'-0"
140
0.0078125
141
12.0
290
     0
  0
SCALE
  5
5A
102
{ACAD_REACTORS
330
47
102
}
330
47
100
AcDbScale
 70
     0
300
1/64" = 1'-0"
140
0.015625
141
12.0
290
     0
  0
SCALE
  5
5B
102
{ACAD_REACTORS
330
47
102
}
330
47
100
AcDbScale
 70
     0
300
1/32" = 1'-0"
140
0.03125
141
12.0
290
     0
  0
SCALE
  5
5C
102
{ACAD_REACTORS
330
47
102
}
330
47
100
AcDbScale
 70
     0
300
1/16" = 1'-0"
140
0.0625
141
12.0
290
     0
  0
SCALE
  5
5D
102
{ACAD_REACTORS
330
47
102
}
330
47
100
AcDbScale
 70
     0
300
3/32" = 1'-0"
140
0.09375
141
12.0
290
     0
  0
SCALE
  5
5E
102
{ACAD_REACTORS
330
47
102
}
330
47
100
AcDbScale
 70
     0
300
1/8" = 1'-0"
140
0.125
141
12.0
290
     0
  0
SCALE
  5
5F
102
{ACAD_REACTORS
330
47
102
}
330
47
100
AcDbScale
 70
     0
300
3/16" = 1'-0"
140
0.1875
141
12.0
290
     0
  0
SCALE
  5
60
102
{ACAD_REACTORS
330
47
102
}
330
47
100
AcDbScale
 70
     0
300
1/4" = 1'-0"
140
0.25
141
12.0
290
     0
  0
SCALE
  5
61
102
{ACAD_REACTORS
330
47
102
}
330
47
100
AcDbScale
 70
     0
300
3/8" = 1'-0"
140
0.375
141
12.0
290
     0
  0
SCALE
  5
62
102
{ACAD_REACTORS
330
47
102
}
330
47
100
AcDbScale
 70
     0
300
1/2" = 1'-0"
140
0.5
141
12.0
290
     0
  0
SCALE
  5
63
102
{ACAD_REACTORS
330
47
102
}
330
47
100
AcDbScale
 70
     0
300
3/4" = 1'-0"
140
0.75
141
12.0
290
     0
  0
SCALE
  5
64
102
{ACAD_REACTORS
330
47
102
}
330
47
100
AcDbScale
 70
     0
300
1" = 1'-0"
140
1.0
141
12.0
290
     0
  0
SCALE
  5
65
102
{ACAD_REACTORS
330
47
102
}
330
47
100
AcDbScale
 70
     0
300
1-1/2" = 1'-0"
140
1.5
141
12.0
290
     0
  0
SCALE
  5
66
102
{ACAD_REACTORS
330
47
102
}
330
47
100
AcDbScale
 70
     0
300
3" = 1'-0"
140
3.0
141
12.0
290
     0
  0
SCALE
  5
67
102
{ACAD_REACTORS
330
47
102
}
330
47
100
AcDbScale
 70
     0
300
6" = 1'-0"
140
6.0
141
12.0
290
     0
  0
SCALE
  5
68
102
{ACAD_REACTORS
330
47
102
}
330
47
100
AcDbScale
 70
     0
300
1'-0" = 1'-0"
140
12.0
141
12.0
290
     0
  0
ENDSEC
  0
EOF
